  0
SECTION
  2
HEADER
  9
$ACADVER
  1
AC1009
  9
$DWGCODEPAGE
  3
ansi_1252
  9
$INSBASE
 10
0.0
 20
0.0
 30
0.0
  9
$EXTMIN
 10
1.000000000000000E+20
 20
1.000000000000000E+20
 30
1.000000000000000E+20
  9
$EXTMAX
 10
-1.000000000000000E+20
 20
-1.000000000000000E+20
 30
-1.000000000000000E+20
  9
$LIMMIN
 10
0.0
 20
0.0
  9
$LIMMAX
 10
12.0
 20
9.0
  9
$ORTHOMODE
 70
     0
  9
$REGENMODE
 70
     1
  9
$FILLMODE
 70
     1
  9
$QTEXTMODE
 70
     0
  9
$MIRRTEXT
 70
     1
  9
$DRAGMODE
 70
     2
  9
$LTSCALE
 40
1.0
  9
$OSMODE
 70
    37
  9
$ATTMODE
 70
     1
  9
$TEXTSIZE
 40
0.2
  9
$TRACEWID
 40
0.05
  9
$TEXTSTYLE
  7
STANDARD
  9
$CLAYER
  8
0
  9
$CELTYPE
  6
BYLAYER
  9
$CECOLOR
 62
   256
  9
$DIMSCALE
 40
1.0
  9
$DIMASZ
 40
0.18
  9
$DIMEXO
 40
0.0625
  9
$DIMDLI
 40
0.38
  9
$DIMRND
 40
0.0
  9
$DIMDLE
 40
0.0
  9
$DIMEXE
 40
0.18
  9
$DIMTP
 40
0.0
  9
$DIMTM
 40
0.0
  9
$DIMTXT
 40
0.18
  9
$DIMCEN
 40
0.09
  9
$DIMTSZ
 40
0.0
  9
$DIMTOL
 70
     0
  9
$DIMLIM
 70
     0
  9
$DIMTIH
 70
     1
  9
$DIMTOH
 70
     1
  9
$DIMSE1
 70
     0
  9
$DIMSE2
 70
     0
  9
$DIMTAD
 70
     0
  9
$DIMZIN
 70
     0
  9
$DIMBLK
  1

  9
$DIMASO
 70
     1
  9
$DIMSHO
 70
     1
  9
$DIMPOST
  1

  9
$DIMAPOST
  1

  9
$DIMALT
 70
     0
  9
$DIMALTD
 70
     2
  9
$DIMALTF
 40
25.4
  9
$DIMLFAC
 40
1.0
  9
$DIMTOFL
 70
     0
  9
$DIMTVP
 40
0.0
  9
$DIMTIX
 70
     0
  9
$DIMSOXD
 70
     0
  9
$DIMSAH
 70
     0
  9
$DIMBLK1
  1

  9
$DIMBLK2
  1

  9
$DIMSTYLE
  2
STANDARD_ACAD
  9
$DIMCLRD
 70
     0
  9
$DIMCLRE
 70
     0
  9
$DIMCLRT
 70
     0
  9
$DIMTFAC
 40
1.0
  9
$DIMGAP
 40
0.09
  9
$LUNITS
 70
     2
  9
$LUPREC
 70
     3
  9
$SKETCHINC
 40
0.1
  9
$FILLETRAD
 40
0.5
  9
$AUNITS
 70
     0
  9
$AUPREC
 70
     0
  9
$MENU
  1
.
  9
$ELEVATION
 40
0.0
  9
$PELEVATION
 40
0.0
  9
$THICKNESS
 40
0.0
  9
$LIMCHECK
 70
     0
  9
$CHAMFERA
 40
0.0
  9
$CHAMFERB
 40
0.0
  9
$SKPOLY
 70
     0
  9
$TDCREATE
 40
2458554.606070243
  9
$TDUPDATE
 40
2458554.606129294
  9
$TDINDWG
 40
0.0000000116
  9
$TDUSRTIMER
 40
0.0000000116
  9
$USRTIMER
 70
     1
  9
$ANGBASE
 50
0.0
  9
$ANGDIR
 70
     0
  9
$PDMODE
 70
     0
  9
$PDSIZE
 40
0.0
  9
$PLINEWID
 40
0.0
  9
$COORDS
 70
     1
  9
$SPLFRAME
 70
     0
  9
$SPLINETYPE
 70
     6
  9
$SPLINESEGS
 70
     8
  9
$ATTDIA
 70
     0
  9
$ATTREQ
 70
     1
  9
$HANDLING
 70
     1
  9
$HANDSEED
  5
125
  9
$SURFTAB1
 70
     6
  9
$SURFTAB2
 70
     6
  9
$SURFTYPE
 70
     6
  9
$SURFU
 70
     6
  9
$SURFV
 70
     6
  9
$UCSNAME
  2

  9
$UCSORG
 10
0.0
 20
0.0
 30
0.0
  9
$UCSXDIR
 10
1.0
 20
0.0
 30
0.0
  9
$UCSYDIR
 10
0.0
 20
1.0
 30
0.0
  9
$PUCSNAME
  2

  9
$PUCSORG
 10
0.0
 20
0.0
 30
0.0
  9
$PUCSXDIR
 10
1.0
 20
0.0
 30
0.0
  9
$PUCSYDIR
 10
0.0
 20
1.0
 30
0.0
  9
$USERI1
 70
     0
  9
$USERI2
 70
     0
  9
$USERI3
 70
     0
  9
$USERI4
 70
     0
  9
$USERI5
 70
     0
  9
$USERR1
 40
0.0
  9
$USERR2
 40
0.0
  9
$USERR3
 40
0.0
  9
$USERR4
 40
0.0
  9
$USERR5
 40
0.0
  9
$WORLDVIEW
 70
     1
  9
$SHADEDGE
 70
     3
  9
$SHADEDIF
 70
    70
  9
$TILEMODE
 70
     1
  9
$MAXACTVP
 70
    64
  9
$PLIMCHECK
 70
     0
  9
$PEXTMIN
 10
1.000000000000000E+20
 20
1.000000000000000E+20
 30
1.000000000000000E+20
  9
$PEXTMAX
 10
-1.000000000000000E+20
 20
-1.000000000000000E+20
 30
-1.000000000000000E+20
  9
$PLIMMIN
 10
0.0
 20
0.0
  9
$PLIMMAX
 10
12.0
 20
9.0
  9
$UNITMODE
 70
     0
  9
$VISRETAIN
 70
     1
  9
$PLINEGEN
 70
     0
  9
$PSLTSCALE
 70
     1
  0
ENDSEC
  0
SECTION
  2
TABLES
  0
TABLE
  2
VPORT
 70
     1
  0
VPORT
  2
*ACTIVE
 70
     0
 10
0.0
 20
0.0
 11
1.0
 21
1.0
 12
10.42990654205607
 22
4.5
 13
0.0
 23
0.0
 14
0.5
 24
0.5
 15
0.5
 25
0.5
 16
0.0
 26
0.0
 36
1.0
 17
0.0
 27
0.0
 37
0.0
 40
9.0
 41
1.972972972850329
 42
50.0
 43
0.0
 44
0.0
 50
0.0
 51
0.0
 71
     0
 72
   100
 73
     1
 74
     3
 75
     0
 76
     0
 77
     0
 78
     0
  0
ENDTAB
  0
TABLE
  2
LTYPE
 70
     1
  0
LTYPE
  2
CONTINUOUS
 70
     0
  3
Solid line
 72
    65
 73
     0
 40
0.0
  0
ENDTAB
  0
TABLE
  2
LAYER
 70
     2
  0
LAYER
  2
0
 70
     0
 62
     7
  6
CONTINUOUS
  0
LAYER
  2
DEFAULT
 70
     0
 62
     7
  6
CONTINUOUS
  0
ENDTAB
  0
TABLE
  2
STYLE
 70
     1
  0
STYLE
  2
STANDARD
 70
     0
 40
0.0
 41
1.0
 50
0.0
 71
     0
 42
0.2
  3
txt
  4

  0
ENDTAB
  0
TABLE
  2
VIEW
 70
     0
  0
ENDTAB
  0
TABLE
  2
UCS
 70
     0
  0
ENDTAB
  0
TABLE
  2
APPID
 70
     1
  0
APPID
  2
ACAD
 70
     0
  0
ENDTAB
  0
TABLE
  2
DIMSTYLE
 70
     1
  0
DIMSTYLE
  2
STANDARD_ACAD
 70
     0
  3

  4

  5

  6

  7

 40
1.0
 41
0.18
 42
0.0625
 43
0.38
 44
0.18
 45
0.0
 46
0.0
 47
0.0
 48
0.0
140
0.18
141
0.09
142
0.0
143
25.4
144
1.0
145
0.0
146
1.0
147
0.09
 71
     0
 72
     0
 73
     1
 74
     1
 75
     0
 76
     0
 77
     0
 78
     0
170
     0
171
     2
172
     0
173
     0
174
     0
175
     0
176
     0
177
     0
178
     0
  0
ENDTAB
  0
ENDSEC
  0
SECTION
  2
BLOCKS
  0
BLOCK
  8
0
  2
$MODEL_SPACE
 70
     0
 10
0.0
 20
0.0
 30
0.0
  3
$MODEL_SPACE
  1

  0
ENDBLK
  5
21
  8
0
  0
BLOCK
 67
     1
  8
0
  2
$PAPER_SPACE
 70
     0
 10
0.0
 20
0.0
 30
0.0
  3
$PAPER_SPACE
  1

  0
ENDBLK
  5
1D
 67
     1
  8
0
  0
ENDSEC
  0
SECTION
  2
ENTITIES
  0
LINE
  5
6F
  8
DEFAULT
 10
1569.422588728376
 20
33.73168272168419
 30
0.0
 11
2269.422588728376
 21
33.73168272168419
 31
0.0
  0
LINE
  5
70
  8
DEFAULT
 10
2269.422588728376
 20
33.73168272168419
 30
0.0
 11
2269.422588728376
 21
1033.731682721684
 31
0.0
  0
LINE
  5
71
  8
DEFAULT
 10
2269.422588728376
 20
1033.731682721684
 30
0.0
 11
1569.422588728376
 21
1033.731682721684
 31
0.0
  0
LINE
  5
72
  8
DEFAULT
 10
1569.422588728376
 20
1033.731682721684
 30
0.0
 11
1569.422588728376
 21
33.73168272168419
 31
0.0
  0
LINE
  5
73
  8
DEFAULT
 10
1652.995223480238
 20
33.73168272168411
 30
0.0
 11
2019.508490561879
 21
33.7316827216841
 31
0.0
  0
ARC
  5
74
  8
DEFAULT
 10
2019.508490561879
 20
83.73168272168411
 30
0.0
 40
50.0
 50
270.0
 51
331.782644145271
  0
LINE
  5
75
  8
DEFAULT
 10
2063.566503965057
 20
60.09079748095454
 30
0.0
 11
2229.907967379691
 21
370.0907974809541
 31
0.0
  0
ARC
  5
76
  8
DEFAULT
 10
2185.849953976513
 20
393.7316827216842
 30
0.0
 40
50.0
 50
331.7826441452702
 51
90.00000000000053
  0
LINE
  5
77
  8
DEFAULT
 10
2185.849953976513
 20
443.7316827216842
 30
0.0
 11
1819.336686894873
 21
443.7316827216843
 31
0.0
  0
ARC
  5
78
  8
DEFAULT
 10
1819.336686894872
 20
393.7316827216842
 30
0.0
 40
50.0
 50
89.99999999999947
 51
151.7826441452707
  0
LINE
  5
79
  8
DEFAULT
 10
1775.278673491694
 20
417.3725679624141
 30
0.0
 11
1608.93721007706
 21
107.3725679624139
 31
0.0
  0
ARC
  5
7A
  8
DEFAULT
 10
1652.995223480238
 20
83.73168272168411
 30
0.0
 40
50.0
 50
151.7826441452708
 51
270.0
  0
LINE
  5
7B
  8
DEFAULT
 10
1922.391107356726
 20
251.8410000544726
 30
0.0
 11
1883.996612638348
 21
312.1961708912237
 31
0.0
  0
LINE
  5
7C
  8
DEFAULT
 10
1883.996612638348
 20
312.1961708912237
 30
0.0
 11
1867.965439515481
 21
301.9980588941563
 31
0.0
  0
LINE
  5
7D
  8
DEFAULT
 10
1867.965439515481
 20
301.9980588941563
 30
0.0
 11
1906.359934233859
 21
241.6428880574051
 31
0.0
  0
LINE
  5
7E
  8
DEFAULT
 10
1906.359934233859
 20
241.6428880574051
 30
0.0
 11
1845.997499514405
 21
203.2437724738673
 31
0.0
  0
LINE
  5
7F
  8
DEFAULT
 10
1845.997499514405
 20
203.2437724738673
 30
0.0
 11
1856.195611511472
 21
187.212599351001
 31
0.0
  0
LINE
  5
80
  8
DEFAULT
 10
1856.195611511472
 20
187.212599351001
 30
0.0
 11
1916.558046230926
 21
225.6117149345387
 31
0.0
  0
LINE
  5
81
  8
DEFAULT
 10
1916.558046230926
 20
225.6117149345387
 30
0.0
 11
1954.917762858896
 21
165.311214372873
 31
0.0
  0
LINE
  5
82
  8
DEFAULT
 10
1954.917762858896
 20
165.311214372873
 30
0.0
 11
1970.948935981763
 21
175.5093263699404
 31
0.0
  0
LINE
  5
83
  8
DEFAULT
 10
1970.948935981763
 20
175.5093263699404
 30
0.0
 11
1932.589219353793
 21
235.8098269316062
 31
0.0
  0
LINE
  5
84
  8
DEFAULT
 10
1932.589219353793
 20
235.8098269316062
 30
0.0
 11
1992.882456032755
 21
274.1649226944163
 31
0.0
  0
LINE
  5
85
  8
DEFAULT
 10
1992.882456032755
 20
274.1649226944163
 30
0.0
 11
1982.684344035688
 21
290.1960958172827
 31
0.0
  0
LINE
  5
86
  8
DEFAULT
 10
1982.684344035688
 20
290.1960958172827
 30
0.0
 11
1922.391107356726
 21
251.8410000544726
 31
0.0
  0
ARC
  5
87
  8
DEFAULT
 10
2178.079693924235
 20
632.6566760289959
 30
0.0
 40
13.16197973857879
 50
359.999999999996
 51
91.26748345085544
  0
LINE
  5
88
  8
DEFAULT
 10
2177.788551522334
 20
645.8154353451538
 30
0.0
 11
2153.470043356516
 21
644.8994401809475
 31
0.0
  0
LINE
  5
89
  8
DEFAULT
 10
2153.470043356516
 20
644.8994401809475
 30
0.0
 11
2138.563753194866
 21
643.8396632322524
 31
0.0
  0
LINE
  5
8A
  8
DEFAULT
 10
2138.563753194866
 20
643.8396632322524
 30
0.0
 11
2129.666539054253
 21
642.9551367413142
 31
0.0
  0
LINE
  5
8B
  8
DEFAULT
 10
2129.666539054253
 20
642.9551367413142
 30
0.0
 11
2121.399480502238
 21
641.9254653636426
 31
0.0
  0
LINE
  5
8C
  8
DEFAULT
 10
2121.399480502238
 20
641.9254653636426
 30
0.0
 11
2113.780465939552
 21
640.7745239178685
 31
0.0
  0
LINE
  5
8D
  8
DEFAULT
 10
2113.780465939552
 20
640.7745239178685
 30
0.0
 11
2106.372297201765
 21
639.4531019474977
 31
0.0
  0
LINE
  5
8E
  8
DEFAULT
 10
2106.372297201765
 20
639.4531019474977
 30
0.0
 11
2073.992621217298
 21
632.4492050695555
 31
0.0
  0
LINE
  5
8F
  8
DEFAULT
 10
2073.992621217298
 20
632.4492050695555
 30
0.0
 11
2065.716811800533
 21
630.9791595573862
 31
0.0
  0
LINE
  5
90
  8
DEFAULT
 10
2065.716811800533
 20
630.9791595573862
 30
0.0
 11
2054.787815693458
 21
629.3030650902633
 31
0.0
  0
ARC
  5
91
  8
DEFAULT
 10
2055.715314488448
 20
622.787762054719
 30
0.0
 40
6.580989869288767
 50
98.10201571920186
 51
180.0
  0
LINE
  5
92
  8
DEFAULT
 10
2049.13432461916
 20
622.787762054719
 30
0.0
 11
2049.134324619159
 21
619.4315586006721
 31
0.0
  0
ARC
  5
93
  8
DEFAULT
 10
2055.71531448845
 20
619.4315586006734
 30
0.0
 40
6.580989869291443
 50
180.0000000000109
 51
269.999999999992
  0
LINE
  5
94
  8
DEFAULT
 10
2055.715314488449
 20
612.850568731382
 30
0.0
 11
2178.079693924235
 21
612.850568731382
 31
0.0
  0
ARC
  5
95
  8
DEFAULT
 10
2178.079693924235
 20
626.0125484699614
 30
0.0
 40
13.16197973857936
 50
270.000000000004
 51
0.0000000000014847
  0
LINE
  5
96
  8
DEFAULT
 10
2191.241673662814
 20
626.0125484699618
 30
0.0
 11
2191.241673662814
 21
632.656676028995
 31
0.0
  0
ARC
  5
97
  8
DEFAULT
 10
-2178.079693924235
 20
519.4182891791353
 30
0.0
 40
13.1619797385797
 50
179.999999999998
 51
271.2674834508514
210
0.0
220
0.0
230
-1.0
  0
LINE
  5
98
  8
DEFAULT
 10
2177.788551522334
 20
506.2595298629763
 30
0.0
 11
2153.470043356516
 21
507.1755250271832
 31
0.0
  0
LINE
  5
99
  8
DEFAULT
 10
2153.470043356516
 20
507.1755250271832
 30
0.0
 11
2138.563753194866
 21
508.2353019758783
 31
0.0
  0
LINE
  5
9A
  8
DEFAULT
 10
2138.563753194866
 20
508.2353019758783
 30
0.0
 11
2129.666539054253
 21
509.1198284668162
 31
0.0
  0
LINE
  5
9B
  8
DEFAULT
 10
2129.666539054253
 20
509.1198284668162
 30
0.0
 11
2121.399480502238
 21
510.1494998444879
 31
0.0
  0
LINE
  5
9C
  8
DEFAULT
 10
2121.399480502238
 20
510.1494998444879
 30
0.0
 11
2113.780465939552
 21
511.3004412902624
 31
0.0
  0
LINE
  5
9D
  8
DEFAULT
 10
2113.780465939552
 20
511.3004412902624
 30
0.0
 11
2106.372297201765
 21
512.6218632606331
 31
0.0
  0
LINE
  5
9E
  8
DEFAULT
 10
2106.372297201765
 20
512.6218632606331
 30
0.0
 11
2073.992621217298
 21
519.6257601385751
 31
0.0
  0
LINE
  5
9F
  8
DEFAULT
 10
2073.992621217298
 20
519.6257601385751
 30
0.0
 11
2065.716811800533
 21
521.0958056507446
 31
0.0
  0
LINE
  5
A0
  8
DEFAULT
 10
2065.716811800533
 20
521.0958056507446
 30
0.0
 11
2054.787815693458
 21
522.7719001178674
 31
0.0
  0
ARC
  5
A1
  8
DEFAULT
 10
-2055.715314488449
 20
529.2872031534121
 30
0.0
 40
6.580989869289233
 50
278.1020157192092
 51
359.999999999997
210
0.0
220
0.0
230
-1.0
  0
LINE
  5
A2
  8
DEFAULT
 10
2049.13432461916
 20
529.2872031534117
 30
0.0
 11
2049.134324619159
 21
532.6434066074587
 31
0.0
  0
ARC
  5
A3
  8
DEFAULT
 10
-2055.71531448845
 20
532.6434066074578
 30
0.0
 40
6.580989869290988
 50
0.0000000000079183
 51
89.99999999999605
210
0.0
220
0.0
230
-1.0
  0
LINE
  5
A4
  8
DEFAULT
 10
2055.715314488449
 20
539.2243964767488
 30
0.0
 11
2178.079693924235
 21
539.2243964767488
 31
0.0
  0
ARC
  5
A5
  8
DEFAULT
 10
-2178.079693924235
 20
526.06241673817
 30
0.0
 40
13.16197973857879
 50
90.0
 51
180.0000000000035
210
0.0
220
0.0
230
-1.0
  0
LINE
  5
A6
  8
DEFAULT
 10
2191.241673662814
 20
526.0624167381692
 30
0.0
 11
2191.241673662814
 21
519.4182891791357
 31
0.0
  0
ARC
  5
A7
  8
DEFAULT
 10
1999.556968432211
 20
360.7396098859817
 30
0.0
 40
142.5000000000156
 50
82.86282749675932
 51
104.2472373519762
  0
LINE
  5
A8
  8
DEFAULT
 10
1964.486783768813
 20
498.8567056695218
 30
0.0
 11
1599.017619505601
 21
406.0581204778974
 31
0.0
  0
ARC
  5
A9
  8
DEFAULT
 10
-1593.172588728334
 20
429.0776364418128
 30
0.0
 40
23.75000000000328
 50
255.7527626479395
 51
70.51794279267594
210
0.0
220
0.0
230
-1.0
  0
LINE
  5
AA
  8
DEFAULT
 10
1585.251687171499
 20
451.4678534690565
 30
0.0
 11
1874.084868841107
 21
553.6472651272486
 31
0.0
  0
ARC
  5
AB
  8
DEFAULT
 10
1866.163967284276
 20
576.0374821544939
 30
0.0
 40
23.75000000000315
 50
289.482057207312
 51
0.0000000000002743
  0
ARC
  5
AC
  8
DEFAULT
 10
1866.163967284276
 20
576.0374821544937
 30
0.0
 40
23.75000000000364
 50
0.0000000000008228
 51
70.51794279268726
  0
LINE
  5
AD
  8
DEFAULT
 10
1874.084868841107
 20
598.4276991817394
 30
0.0
 11
1585.251687171499
 21
700.6071108399312
 31
0.0
  0
ARC
  5
AE
  8
DEFAULT
 10
-1593.172588728335
 20
722.9973278671749
 30
0.0
 40
23.75000000000339
 50
289.4820572073251
 51
104.2472373520594
210
0.0
220
0.0
230
-1.0
  0
LINE
  5
AF
  8
DEFAULT
 10
1599.017619505601
 20
746.0168438310905
 30
0.0
 11
1964.486783768813
 21
653.2182586394661
 31
0.0
  0
ARC
  5
B0
  8
DEFAULT
 10
1999.556968432211
 20
791.3353544229999
 30
0.0
 40
142.5000000000095
 50
255.7527626480231
 51
277.1371725032409
  0
LINE
  5
B1
  8
DEFAULT
 10
2017.261917747077
 20
649.9395101779842
 30
0.0
 11
2028.694542083947
 21
651.5177576913013
 31
0.0
  0
LINE
  5
B2
  8
DEFAULT
 10
2028.694542083947
 20
651.5177576913013
 30
0.0
 11
2039.202007711049
 21
653.2354842546024
 31
0.0
  0
LINE
  5
B3
  8
DEFAULT
 10
2039.202007711049
 20
653.2354842546024
 30
0.0
 11
2048.937410974011
 21
655.0547270599275
 31
0.0
  0
LINE
  5
B4
  8
DEFAULT
 10
2048.937410974011
 20
655.0547270599275
 30
0.0
 11
2091.391863923749
 21
664.3449864383189
 31
0.0
  0
LINE
  5
B5
  8
DEFAULT
 10
2091.391863923749
 20
664.3449864383189
 30
0.0
 11
2105.953086325404
 21
667.1095150158052
 31
0.0
  0
LINE
  5
B6
  8
DEFAULT
 10
2105.953086325404
 20
667.1095150158052
 30
0.0
 11
2121.315595901744
 21
669.4958654451609
 31
0.0
  0
LINE
  5
B7
  8
DEFAULT
 10
2121.315595901744
 20
669.4958654451609
 30
0.0
 11
2137.838408808129
 21
671.5069887209132
 31
0.0
  0
LINE
  5
B8
  8
DEFAULT
 10
2137.838408808129
 20
671.5069887209132
 30
0.0
 11
2155.880541199922
 21
673.145835837589
 31
0.0
  0
LINE
  5
B9
  8
DEFAULT
 10
2155.880541199922
 20
673.145835837589
 30
0.0
 11
2175.801009232482
 21
674.4153577897155
 31
0.0
  0
LINE
  5
BA
  8
DEFAULT
 10
2175.801009232482
 20
674.4153577897155
 30
0.0
 11
2197.95882906117
 21
675.3185055718197
 31
0.0
  0
LINE
  5
BB
  8
DEFAULT
 10
2197.95882906117
 20
675.3185055718197
 30
0.0
 11
2250.422588728375
 21
676.0374826040705
 31
0.0
  0
LINE
  5
BC
  8
DEFAULT
 10
2250.422588728375
 20
676.0374826040706
 30
0.0
 11
2250.422588728375
 21
657.0374826040697
 31
0.0
  0
LINE
  5
BD
  8
DEFAULT
 10
2250.422588728375
 20
657.0374826040697
 30
0.0
 11
2268.422588728378
 21
657.0374826040697
 31
0.0
  0
ARC
  5
BE
  8
DEFAULT
 10
-2268.422588728376
 20
656.03748260407
 30
0.0
 40
0.9999999999997726
 50
90.00000000015633
 51
180.0000000000912
210
0.0
220
0.0
230
-1.0
  0
LINE
  5
BF
  8
DEFAULT
 10
2269.422588728376
 20
656.0374826040684
 30
0.0
 11
2269.422588728376
 21
586.537482604065
 31
0.0
  0
ARC
  5
C0
  8
DEFAULT
 10
-2268.422588728376
 20
586.5374826040648
 30
0.0
 40
1.0
 50
179.9999999999935
 51
269.999999999974
210
0.0
220
0.0
230
-1.0
  0
LINE
  5
C1
  8
DEFAULT
 10
2268.422588728376
 20
585.5374826040647
 30
0.0
 11
2118.422588728368
 21
585.537482604067
 31
0.0
  0
LINE
  5
C2
  8
DEFAULT
 10
2118.422588728368
 20
585.537482604067
 30
0.0
 11
2118.422588728368
 21
566.5374826040654
 31
0.0
  0
LINE
  5
C3
  8
DEFAULT
 10
2118.422588728368
 20
566.5374826040654
 30
0.0
 11
2268.422588728377
 21
566.5374826040654
 31
0.0
  0
ARC
  5
C4
  8
DEFAULT
 10
-2268.422588728376
 20
565.5374826040661
 30
0.0
 40
0.9999999999993179
 50
90.00000000002606
 51
180.000000000013
210
0.0
220
0.0
230
-1.0
  0
LINE
  5
C5
  8
DEFAULT
 10
2269.422588728376
 20
565.5374826040659
 30
0.0
 11
2269.422588728376
 21
496.0374826040589
 31
0.0
  0
ARC
  5
C6
  8
DEFAULT
 10
-2268.422588728376
 20
496.0374826040589
 30
0.0
 40
0.9999999999995453
 50
179.9999999999967
 51
270.0
210
0.0
220
0.0
230
-1.0
  0
LINE
  5
C7
  8
DEFAULT
 10
2268.422588728376
 20
495.0374826040594
 30
0.0
 11
2250.422588728375
 21
495.0374826040594
 31
0.0
  0
LINE
  5
C8
  8
DEFAULT
 10
2250.422588728375
 20
495.0374826040594
 30
0.0
 11
2250.422588728375
 21
476.0374821544875
 31
0.0
  0
LINE
  5
C9
  8
DEFAULT
 10
2250.422588728375
 20
476.0374821544875
 30
0.0
 11
2197.95882906117
 21
476.7564589268306
 31
0.0
  0
LINE
  5
CA
  8
DEFAULT
 10
2197.95882906117
 20
476.7564589268306
 30
0.0
 11
2175.801009232482
 21
477.6596066290308
 31
0.0
  0
LINE
  5
CB
  8
DEFAULT
 10
2175.801009232482
 20
477.6596066290308
 30
0.0
 11
2155.880541199922
 21
478.9291285275952
 31
0.0
  0
LINE
  5
CC
  8
DEFAULT
 10
2155.880541199922
 20
478.9291285275952
 30
0.0
 11
2137.838408808129
 21
480.5679756117825
 31
0.0
  0
LINE
  5
CD
  8
DEFAULT
 10
2137.838408808129
 20
480.5679756117825
 30
0.0
 11
2121.315595901744
 21
482.5790988708513
 31
0.0
  0
LINE
  5
CE
  8
DEFAULT
 10
2121.315595901744
 20
482.5790988708513
 30
0.0
 11
2105.953086325404
 21
484.9654492940606
 31
0.0
  0
LINE
  5
CF
  8
DEFAULT
 10
2105.953086325404
 20
484.9654492940606
 30
0.0
 11
2091.391863923748
 21
487.729977870669
 31
0.0
  0
LINE
  5
D0
  8
DEFAULT
 10
2091.391863923748
 20
487.729977870669
 30
0.0
 11
2048.937410974011
 21
497.0202372490602
 31
0.0
  0
LINE
  5
D1
  8
DEFAULT
 10
2048.937410974011
 20
497.0202372490602
 30
0.0
 11
2039.202007711049
 21
498.8394800543853
 31
0.0
  0
LINE
  5
D2
  8
DEFAULT
 10
2039.202007711049
 20
498.8394800543853
 30
0.0
 11
2028.694542083947
 21
500.5572066176863
 31
0.0
  0
LINE
  5
D3
  8
DEFAULT
 10
2028.694542083947
 20
500.5572066176863
 30
0.0
 11
2017.261917747077
 21
502.1354541310035
 31
0.0
  0
ARC
  5
D4
  8
DEFAULT
 10
-1660.765483532517
 20
914.1472943660676
 30
0.0
 40
13.16197973857993
 50
359.999999999998
 51
91.26748345085038
210
0.0
220
0.0
230
-1.0
  0
LINE
  5
D5
  8
DEFAULT
 10
1661.056625934417
 20
927.3060536822264
 30
0.0
 11
1685.375134100235
 21
926.3900585180197
 31
0.0
  0
LINE
  5
D6
  8
DEFAULT
 10
1685.375134100235
 20
926.3900585180197
 30
0.0
 11
1700.281424261885
 21
925.3302815693244
 31
0.0
  0
LINE
  5
D7
  8
DEFAULT
 10
1700.281424261885
 20
925.3302815693244
 30
0.0
 11
1709.178638402498
 21
924.4457550783865
 31
0.0
  0
LINE
  5
D8
  8
DEFAULT
 10
1709.178638402498
 20
924.4457550783865
 30
0.0
 11
1717.445696954513
 21
923.4160837007149
 31
0.0
  0
LINE
  5
D9
  8
DEFAULT
 10
1717.445696954513
 20
923.4160837007149
 30
0.0
 11
1725.0647115172
 21
922.2651422549407
 31
0.0
  0
LINE
  5
DA
  8
DEFAULT
 10
1725.0647115172
 20
922.2651422549407
 30
0.0
 11
1732.472880254986
 21
920.94372028457
 31
0.0
  0
LINE
  5
DB
  8
DEFAULT
 10
1732.472880254986
 20
920.94372028457
 30
0.0
 11
1764.852556239454
 21
913.9398234066275
 31
0.0
  0
LINE
  5
DC
  8
DEFAULT
 10
1764.852556239454
 20
913.9398234066275
 30
0.0
 11
1773.128365656218
 21
912.4697778944582
 31
0.0
  0
LINE
  5
DD
  8
DEFAULT
 10
1773.128365656218
 20
912.4697778944582
 30
0.0
 11
1784.057361763293
 21
910.7936834273355
 31
0.0
  0
ARC
  5
DE
  8
DEFAULT
 10
-1783.129862968301
 20
904.2783803917898
 30
0.0
 40
6.580989869290375
 50
98.10201571921587
 51
179.9999999999901
210
0.0
220
0.0
230
-1.0
  0
LINE
  5
DF
  8
DEFAULT
 10
1789.710852837592
 20
904.278380391791
 30
0.0
 11
1789.710852837592
 21
900.9221769377441
 31
0.0
  0
ARC
  5
E0
  8
DEFAULT
 10
-1783.129862968302
 20
900.9221769377443
 30
0.0
 40
6.580989869290534
 50
180.000000000002
 51
270.0
210
0.0
220
0.0
230
-1.0
  0
LINE
  5
E1
  8
DEFAULT
 10
1783.129862968302
 20
894.341187068454
 30
0.0
 11
1660.765483532516
 21
894.341187068454
 31
0.0
  0
ARC
  5
E2
  8
DEFAULT
 10
-1660.765483532516
 20
907.5031668070333
 30
0.0
 40
13.16197973857925
 50
270.000000000001
 51
0.0000000000019796
210
0.0
220
0.0
230
-1.0
  0
LINE
  5
E3
  8
DEFAULT
 10
1647.603503793937
 20
907.5031668070337
 30
0.0
 11
1647.603503793937
 21
914.1472943660672
 31
0.0
  0
ARC
  5
E4
  8
DEFAULT
 10
1660.765483532516
 20
800.9089075162071
 30
0.0
 40
13.16197973857925
 50
179.999999999997
 51
271.2674834508534
  0
LINE
  5
E5
  8
DEFAULT
 10
1661.056625934417
 20
787.7501482000488
 30
0.0
 11
1685.375134100235
 21
788.6661433642553
 31
0.0
  0
LINE
  5
E6
  8
DEFAULT
 10
1685.375134100235
 20
788.6661433642553
 30
0.0
 11
1700.281424261885
 21
789.7259203129505
 31
0.0
  0
LINE
  5
E7
  8
DEFAULT
 10
1700.281424261885
 20
789.7259203129505
 30
0.0
 11
1709.178638402498
 21
790.6104468038886
 31
0.0
  0
LINE
  5
E8
  8
DEFAULT
 10
1709.178638402498
 20
790.6104468038886
 30
0.0
 11
1717.445696954513
 21
791.6401181815598
 31
0.0
  0
LINE
  5
E9
  8
DEFAULT
 10
1717.445696954513
 20
791.6401181815598
 30
0.0
 11
1725.0647115172
 21
792.7910596273343
 31
0.0
  0
LINE
  5
EA
  8
DEFAULT
 10
1725.0647115172
 20
792.7910596273343
 30
0.0
 11
1732.472880254986
 21
794.1124815977051
 31
0.0
  0
LINE
  5
EB
  8
DEFAULT
 10
1732.472880254986
 20
794.1124815977051
 30
0.0
 11
1764.852556239454
 21
801.1163784756471
 31
0.0
  0
LINE
  5
EC
  8
DEFAULT
 10
1764.852556239454
 20
801.1163784756471
 30
0.0
 11
1773.128365656218
 21
802.5864239878166
 31
0.0
  0
LINE
  5
ED
  8
DEFAULT
 10
1773.128365656218
 20
802.5864239878166
 30
0.0
 11
1784.057361763293
 21
804.2625184549393
 31
0.0
  0
ARC
  5
EE
  8
DEFAULT
 10
1783.129862968301
 20
810.777821490485
 30
0.0
 40
6.580989869290487
 50
278.1020157192157
 51
359.9999999999891
  0
LINE
  5
EF
  8
DEFAULT
 10
1789.710852837592
 20
810.7778214904838
 30
0.0
 11
1789.710852837592
 21
814.1340249445307
 31
0.0
  0
ARC
  5
F0
  8
DEFAULT
 10
1783.129862968302
 20
814.1340249445306
 30
0.0
 40
6.580989869290079
 50
0.0000000000009898
 51
90.00000000000395
  0
LINE
  5
F1
  8
DEFAULT
 10
1783.129862968302
 20
820.7150148138207
 30
0.0
 11
1660.765483532516
 21
820.7150148138207
 31
0.0
  0
ARC
  5
F2
  8
DEFAULT
 10
1660.765483532517
 20
807.5530350752408
 30
0.0
 40
13.16197973857993
 50
90.00000000000395
 51
179.999999999999
  0
LINE
  5
F3
  8
DEFAULT
 10
1647.603503793937
 20
807.553035075241
 30
0.0
 11
1647.603503793937
 21
800.9089075162078
 31
0.0
  0
ARC
  5
F4
  8
DEFAULT
 10
2245.672588728416
 20
710.5682547788871
 30
0.0
 40
23.75000000000323
 50
255.7527626479399
 51
70.51794279267529
  0
LINE
  5
F5
  8
DEFAULT
 10
2253.593490285252
 20
732.9584718061309
 30
0.0
 11
1964.760308615644
 21
835.1378834643227
 31
0.0
  0
ARC
  5
F6
  8
DEFAULT
 10
-1972.681210172473
 20
857.5281004915646
 30
0.0
 40
23.74999999999918
 50
289.4820572073095
 51
336.421822705167
210
0.0
220
0.0
230
-1.0
  0
LINE
  5
F7
  8
DEFAULT
 10
1950.913975425223
 20
848.0281009411385
 30
0.0
 11
1720.422588728383
 21
848.0281009411374
 31
0.0
  0
LINE
  5
F8
  8
DEFAULT
 10
1720.422588728383
 20
848.0281009411374
 30
0.0
 11
1720.422588728383
 21
867.0281009411374
 31
0.0
  0
LINE
  5
F9
  8
DEFAULT
 10
1720.422588728383
 20
867.0281009411374
 30
0.0
 11
1950.913975817638
 21
867.0281009411356
 31
0.0
  0
ARC
  5
FA
  8
DEFAULT
 10
-1972.681210172474
 20
857.5281004915688
 30
0.0
 40
23.75000000000263
 50
23.57817966155001
 51
70.51794279268817
210
0.0
220
0.0
230
-1.0
  0
LINE
  5
FB
  8
DEFAULT
 10
1964.760308615644
 20
879.9183175188136
 30
0.0
 11
2253.593490285252
 21
982.0977291770055
 31
0.0
  0
ARC
  5
FC
  8
DEFAULT
 10
2245.672588728416
 20
1004.487946204249
 30
0.0
 40
23.75000000000299
 50
289.4820572073249
 51
104.2472373520591
  0
LINE
  5
FD
  8
DEFAULT
 10
2239.82755795115
 20
1027.507462168165
 30
0.0
 11
1874.358393687938
 21
934.7088769765403
 31
0.0
  0
ARC
  5
FE
  8
DEFAULT
 10
-1839.288209024539
 20
1072.825972760083
 30
0.0
 40
142.5000000000187
 50
255.7527626480237
 51
277.1371725032403
210
0.0
220
0.0
230
-1.0
  0
LINE
  5
FF
  8
DEFAULT
 10
1821.583259709674
 20
931.4301285150584
 30
0.0
 11
1810.150635372804
 21
933.0083760283756
 31
0.0
  0
LINE
  5
100
  8
DEFAULT
 10
1810.150635372804
 20
933.0083760283756
 30
0.0
 11
1799.643169745702
 21
934.7261025916766
 31
0.0
  0
LINE
  5
101
  8
DEFAULT
 10
1799.643169745702
 20
934.7261025916766
 30
0.0
 11
1789.90776648274
 21
936.5453453970017
 31
0.0
  0
LINE
  5
102
  8
DEFAULT
 10
1789.90776648274
 20
936.5453453970017
 30
0.0
 11
1747.453313533003
 21
945.8356047753931
 31
0.0
  0
LINE
  5
103
  8
DEFAULT
 10
1747.453313533003
 20
945.8356047753931
 30
0.0
 11
1732.892091131347
 21
948.6001333528794
 31
0.0
  0
LINE
  5
104
  8
DEFAULT
 10
1732.892091131347
 20
948.6001333528794
 30
0.0
 11
1717.529581555007
 21
950.9864837822352
 31
0.0
  0
LINE
  5
105
  8
DEFAULT
 10
1717.529581555007
 20
950.9864837822352
 30
0.0
 11
1701.006768648621
 21
952.9976070579875
 31
0.0
  0
LINE
  5
106
  8
DEFAULT
 10
1701.006768648621
 20
952.9976070579875
 30
0.0
 11
1682.964636256829
 21
954.6364541746632
 31
0.0
  0
LINE
  5
107
  8
DEFAULT
 10
1682.964636256829
 20
954.6364541746632
 30
0.0
 11
1663.044168224269
 21
955.9059761267897
 31
0.0
  0
LINE
  5
108
  8
DEFAULT
 10
1663.044168224269
 20
955.9059761267897
 30
0.0
 11
1640.886348395581
 21
956.809123908894
 31
0.0
  0
LINE
  5
109
  8
DEFAULT
 10
1640.886348395581
 20
956.809123908894
 30
0.0
 11
1588.422588728376
 21
957.5281009411448
 31
0.0
  0
LINE
  5
10A
  8
DEFAULT
 10
1588.422588728376
 20
957.5281009411449
 30
0.0
 11
1588.422588728376
 21
938.5281009411433
 31
0.0
  0
LINE
  5
10B
  8
DEFAULT
 10
1588.422588728376
 20
938.5281009411433
 30
0.0
 11
1570.422588728375
 21
938.5281009411433
 31
0.0
  0
ARC
  5
10C
  8
DEFAULT
 10
1570.422588728375
 20
937.528100941144
 30
0.0
 40
0.9999999999993179
 50
89.99999999998697
 51
180.000000000013
  0
LINE
  5
10D
  8
DEFAULT
 10
1569.422588728376
 20
937.5281009411437
 30
0.0
 11
1569.422588728376
 21
777.5281009411342
 31
0.0
  0
ARC
  5
10E
  8
DEFAULT
 10
1570.422588728375
 20
777.5281009411323
 30
0.0
 40
0.9999999999990905
 50
179.9999999998893
 51
269.9999999998957
  0
LINE
  5
10F
  8
DEFAULT
 10
1570.422588728373
 20
776.5281009411331
 30
0.0
 11
1588.422588728376
 21
776.5281009411331
 31
0.0
  0
LINE
  5
110
  8
DEFAULT
 10
1588.422588728376
 20
776.5281009411331
 30
0.0
 11
1588.422588728376
 21
757.5281004915618
 31
0.0
  0
LINE
  5
111
  8
DEFAULT
 10
1588.422588728376
 20
757.5281004915616
 30
0.0
 11
1640.886348395581
 21
758.2470772639049
 31
0.0
  0
LINE
  5
112
  8
DEFAULT
 10
1640.886348395581
 20
758.2470772639049
 30
0.0
 11
1663.044168224269
 21
759.150224966105
 31
0.0
  0
LINE
  5
113
  8
DEFAULT
 10
1663.044168224269
 20
759.150224966105
 30
0.0
 11
1682.964636256829
 21
760.4197468646694
 31
0.0
  0
LINE
  5
114
  8
DEFAULT
 10
1682.964636256829
 20
760.4197468646694
 30
0.0
 11
1701.006768648621
 21
762.0585939488566
 31
0.0
  0
LINE
  5
115
  8
DEFAULT
 10
1701.006768648621
 20
762.0585939488566
 30
0.0
 11
1717.529581555007
 21
764.0697172079256
 31
0.0
  0
LINE
  5
116
  8
DEFAULT
 10
1717.529581555007
 20
764.0697172079256
 30
0.0
 11
1732.892091131347
 21
766.4560676311348
 31
0.0
  0
LINE
  5
117
  8
DEFAULT
 10
1732.892091131347
 20
766.4560676311348
 30
0.0
 11
1747.453313533003
 21
769.2205962077433
 31
0.0
  0
LINE
  5
118
  8
DEFAULT
 10
1747.453313533003
 20
769.2205962077433
 30
0.0
 11
1789.90776648274
 21
778.5108555861345
 31
0.0
  0
LINE
  5
119
  8
DEFAULT
 10
1789.90776648274
 20
778.5108555861345
 30
0.0
 11
1799.643169745702
 21
780.3300983914596
 31
0.0
  0
LINE
  5
11A
  8
DEFAULT
 10
1799.643169745702
 20
780.3300983914596
 30
0.0
 11
1810.150635372804
 21
782.0478249547607
 31
0.0
  0
LINE
  5
11B
  8
DEFAULT
 10
1810.150635372804
 20
782.0478249547607
 30
0.0
 11
1821.583259709674
 21
783.6260724680778
 31
0.0
  0
ARC
  5
11C
  8
DEFAULT
 10
-1839.288209024539
 20
642.2302282230515
 30
0.0
 40
142.50000000002
 50
82.86282749675992
 51
104.2472373519761
210
0.0
220
0.0
230
-1.0
  0
LINE
  5
11D
  8
DEFAULT
 10
1874.358393687938
 20
780.347324006596
 30
0.0
 11
2239.82755795115
 21
687.5487388149717
 31
0.0
  0
ENDSEC
  0
EOF
